ISO-10303-21;
HEADER;
FILE_DESCRIPTION (( 'STEP AP203' ),
    '1' );
FILE_NAME ('QM-CAQWP-15-550-750-M.STEP',
    '2021-01-05T02:44:32',
    ( '' ),
    ( '' ),
    'SwSTEP 2.0',
    'SolidWorks 2020',
    '' );
FILE_SCHEMA (( 'CONFIG_CONTROL_DESIGN' ));
ENDSEC;

DATA;
#1 = LINE ( 'NONE', #134, #311 ) ;
#2 = ORIENTED_EDGE ( 'NONE', *, *, #136, .T. ) ;
#3 = ORIENTED_EDGE ( 'NONE', *, *, #143, .F. ) ;
#4 = FACE_OUTER_BOUND ( 'NONE', #174, .T. ) ;
#5 = AXIS2_PLACEMENT_3D ( 'NONE', #322, #118, #236 ) ;
#6 = DIRECTION ( 'NONE',  ( 0.000000000000000000, 0.000000000000000000, 1.000000000000000000 ) ) ;
#7 = FACE_OUTER_BOUND ( 'NONE', #18, .T. ) ;
#8 = PLANE ( 'NONE',  #131 ) ;
#9 = PERSON_AND_ORGANIZATION ( #272, #142 ) ;
#10 = CARTESIAN_POINT ( 'NONE',  ( -3.000000000000000000, 0.000000000000000000, 0.000000000000000000 ) ) ;
#11 = CYLINDRICAL_SURFACE ( 'NONE', #58, 7.499999999999998224 ) ;
#12 = CC_DESIGN_SECURITY_CLASSIFICATION ( #188, ( #75 ) ) ;
#13 = APPROVAL_PERSON_ORGANIZATION ( #287, #73, #323 ) ;
#14 = DIRECTION ( 'NONE',  ( -1.000000000000000000, -0.000000000000000000, -0.000000000000000000 ) ) ;
#15 = CALENDAR_DATE ( 2021, 5, 1 ) ;
#16 = CC_DESIGN_DATE_AND_TIME_ASSIGNMENT ( #67, #284, ( #188 ) ) ;
#17 = VERTEX_POINT ( 'NONE', #309 ) ;
#18 = EDGE_LOOP ( 'NONE', ( #302, #3 ) ) ;
#19 = VERTEX_POINT ( 'NONE', #147 ) ;
#20 = AXIS2_PLACEMENT_3D ( 'NONE', #241, #296, #184 ) ;
#21 = ADVANCED_FACE ( 'NONE', ( #267 ), #11, .F. ) ;
#22 = APPLICATION_PROTOCOL_DEFINITION ( 'international standard', 'config_control_design', 1994, #221 ) ;
#23 = CIRCLE ( 'NONE', #297, 12.69999999999999929 ) ;
#24 = ORIENTED_EDGE ( 'NONE', *, *, #206, .F. ) ;
#25 = ADVANCED_FACE ( 'NONE', ( #93 ), #259, .F. ) ;
#26 = PERSON_AND_ORGANIZATION_ROLE ( 'creator' ) ;
#27 = CYLINDRICAL_SURFACE ( 'NONE', #123, 7.499999999999998224 ) ;
#28 = VECTOR ( 'NONE', #14, 1000.000000000000000 ) ;
#29 = APPROVAL_STATUS ( 'not_yet_approved' ) ;
#30 = DIRECTION ( 'NONE',  ( 0.000000000000000000, 0.000000000000000000, -1.000000000000000000 ) ) ;
#31 = DATE_AND_TIME ( #292, #256 ) ;
#32 = DIRECTION ( 'NONE',  ( -1.000000000000000000, -0.000000000000000000, -0.000000000000000000 ) ) ;
#33 = DIRECTION ( 'NONE',  ( 1.000000000000000000, 0.000000000000000000, 0.000000000000000000 ) ) ;
#34 = PRODUCT_DEFINITION_SHAPE ( 'NONE', 'NONE',  #321 ) ;
#35 = CARTESIAN_POINT ( 'NONE',  ( 3.000000000000000000, 9.184850993605144000E-16, -7.499999999999997335 ) ) ;
#36 = DIRECTION ( 'NONE',  ( 0.000000000000000000, 0.000000000000000000, 1.000000000000000000 ) ) ;
#37 = LOCAL_TIME ( 10, 44, 32.00000000000000000, #64 ) ;
#38 = CARTESIAN_POINT ( 'NONE',  ( -1.614212418857619014, 0.000000000000000000, 0.000000000000000000 ) ) ;
#39 = CARTESIAN_POINT ( 'NONE',  ( -1.614212418857619014, 9.184850993605145972E-16, -7.499999999999998224 ) ) ;
#40 = ORIENTED_EDGE ( 'NONE', *, *, #282, .F. ) ;
#41 = EDGE_LOOP ( 'NONE', ( #269, #194 ) ) ;
#42 = EDGE_CURVE ( 'NONE', #111, #77, #101, .T. ) ;
#43 = AXIS2_PLACEMENT_3D ( 'NONE', #228, #83, #86 ) ;
#44 = EDGE_LOOP ( 'NONE', ( #222, #129, #246, #310 ) ) ;
#45 = ORIENTED_EDGE ( 'NONE', *, *, #42, .F. ) ;
#46 = ORIENTED_EDGE ( 'NONE', *, *, #307, .T. ) ;
#47 = APPLICATION_CONTEXT ( 'configuration controlled 3d designs of mechanical parts and assemblies' ) ;
#48 = CARTESIAN_POINT ( 'NONE',  ( -0.5000000000000004441, 0.000000000000000000, 7.499999999999998224 ) ) ;
#49 = ADVANCED_FACE ( 'NONE', ( #265 ), #27, .F. ) ;
#50 = DIRECTION ( 'NONE',  ( -1.000000000000000000, -0.000000000000000000, -0.000000000000000000 ) ) ;
#51 = LOCAL_TIME ( 10, 44, 32.00000000000000000, #117 ) ;
#52 = ADVANCED_FACE ( 'NONE', ( #317 ), #122, .F. ) ;
#53 = CARTESIAN_POINT ( 'NONE',  ( -1.614212418857619014, 0.000000000000000000, 0.000000000000000000 ) ) ;
#54 = APPLICATION_PROTOCOL_DEFINITION ( 'international standard', 'config_control_design', 1994, #47 ) ;
#55 = CALENDAR_DATE ( 2021, 5, 1 ) ;
#56 = CARTESIAN_POINT ( 'NONE',  ( -1.614212418857619014, 0.000000000000000000, 0.000000000000000000 ) ) ;
#57 = ADVANCED_FACE ( 'NONE', ( #95 ), #125, .T. ) ;
#58 = AXIS2_PLACEMENT_3D ( 'NONE', #320, #286, #215 ) ;
#59 = PERSON_AND_ORGANIZATION_ROLE ( 'classification_officer' ) ;
#60 = CARTESIAN_POINT ( 'NONE',  ( 0.5000000000000004441, 7.500000000000000000, 0.000000000000000000 ) ) ;
#61 = CARTESIAN_POINT ( 'NONE',  ( -0.5000000000000004441, 0.000000000000000000, 0.000000000000000000 ) ) ;
#62 = CARTESIAN_POINT ( 'NONE',  ( 0.5000000000000008882, 0.000000000000000000, 7.500000000000000000 ) ) ;
#63 = DIRECTION ( 'NONE',  ( 0.000000000000000000, 0.000000000000000000, -1.000000000000000000 ) ) ;
#64 = COORDINATED_UNIVERSAL_TIME_OFFSET ( 8, 0, .AHEAD. ) ;
#65 = CARTESIAN_POINT ( 'NONE',  ( 3.000000000000000000, 0.000000000000000000, 12.69999999999999929 ) ) ;
#66 = CARTESIAN_POINT ( 'NONE',  ( 3.000000000000000000, 1.555301434917138433E-15, -12.69999999999999929 ) ) ;
#67 = DATE_AND_TIME ( #15, #37 ) ;
#68 = LINE ( 'NONE', #39, #28 ) ;
#69 = VECTOR ( 'NONE', #32, 1000.000000000000000 ) ;
#70 = ORIENTED_EDGE ( 'NONE', *, *, #206, .T. ) ;
#71 = ORIENTED_EDGE ( 'NONE', *, *, #332, .F. ) ;
#72 = EDGE_LOOP ( 'NONE', ( #46, #270, #45, #177 ) ) ;
#73 = APPROVAL ( #29, 'UNSPECIFIED' ) ;
#74 = LOCAL_TIME ( 10, 44, 32.00000000000000000, #314 ) ;
#75 = PRODUCT_DEFINITION_FORMATION_WITH_SPECIFIED_SOURCE ( 'ANY', '', #178, .NOT_KNOWN. ) ;
#76 = VERTEX_POINT ( 'NONE', #66 ) ;
#77 = VERTEX_POINT ( 'NONE', #162 ) ;
#78 = EDGE_CURVE ( 'NONE', #327, #19, #244, .T. ) ;
#79 = EDGE_LOOP ( 'NONE', ( #2, #151, #300, #103 ) ) ;
#80 = FACE_BOUND ( 'NONE', #41, .T. ) ;
#81 = VECTOR ( 'NONE', #263, 1000.000000000000000 ) ;
#82 = PERSON_AND_ORGANIZATION ( #272, #142 ) ;
#83 = DIRECTION ( 'NONE',  ( -1.000000000000000000, -0.000000000000000000, -0.000000000000000000 ) ) ;
#84 = DIRECTION ( 'NONE',  ( -1.000000000000000000, -0.000000000000000000, -0.000000000000000000 ) ) ;
#85 = EDGE_LOOP ( 'NONE', ( #193, #201 ) ) ;
#86 = DIRECTION ( 'NONE',  ( 0.000000000000000000, 0.000000000000000000, 1.000000000000000000 ) ) ;
#87 = CARTESIAN_POINT ( 'NONE',  ( -1.614212418857619014, 0.000000000000000000, 0.000000000000000000 ) ) ;
#88 = FACE_OUTER_BOUND ( 'NONE', #200, .T. ) ;
#89 = DIRECTION ( 'NONE',  ( 0.000000000000000000, 0.000000000000000000, 1.000000000000000000 ) ) ;
#90 = DIRECTION ( 'NONE',  ( -1.000000000000000000, 0.000000000000000000, -0.000000000000000000 ) ) ;
#91 = CARTESIAN_POINT ( 'NONE',  ( 3.000000000000000000, 0.000000000000000000, 0.000000000000000000 ) ) ;
#92 = AXIS2_PLACEMENT_3D ( 'NONE', #10, #121, #212 ) ;
#93 = FACE_OUTER_BOUND ( 'NONE', #225, .T. ) ;
#94 = APPROVAL_DATE_TIME ( #243, #73 ) ;
#95 = FACE_OUTER_BOUND ( 'NONE', #325, .T. ) ;
#96 = PERSON_AND_ORGANIZATION ( #272, #142 ) ;
#97 = VECTOR ( 'NONE', #185, 1000.000000000000000 ) ;
#98 = ORIENTED_EDGE ( 'NONE', *, *, #232, .F. ) ;
#99 = DESIGN_CONTEXT ( 'detailed design', #221, 'design' ) ;
#100 = EDGE_LOOP ( 'NONE', ( #132, #98 ) ) ;
#101 = CIRCLE ( 'NONE', #268, 12.69999999999999929 ) ;
#102 = ORIENTED_EDGE ( 'NONE', *, *, #78, .T. ) ;
#103 = ORIENTED_EDGE ( 'NONE', *, *, #78, .F. ) ;
#104 = CARTESIAN_POINT ( 'NONE',  ( -0.5000000000000004441, 7.500000000000000000, 0.000000000000000000 ) ) ;
#105 = PLANE ( 'NONE',  #171 ) ;
#106 = ADVANCED_FACE ( 'NONE', ( #315, #88 ), #8, .F. ) ;
#107 = LOCAL_TIME ( 10, 44, 32.00000000000000000, #211 ) ;
#108 = VERTEX_POINT ( 'NONE', #237 ) ;
#109 = CARTESIAN_POINT ( 'NONE',  ( 3.000000000000000000, 0.000000000000000000, 0.000000000000000000 ) ) ;
#110 = CARTESIAN_POINT ( 'NONE',  ( -3.000000000000000000, 9.184850993605147944E-16, -7.500000000000000000 ) ) ;
#111 = VERTEX_POINT ( 'NONE', #210 ) ;
#112 = CARTESIAN_POINT ( 'NONE',  ( 3.000000000000000000, 0.000000000000000000, 7.499999999999997335 ) ) ;
#113 = AXIS2_PLACEMENT_3D ( 'NONE', #53, #202, #257 ) ;
#114 = AXIS2_PLACEMENT_3D ( 'NONE', #240, #146, #239 ) ;
#115 = PERSON_AND_ORGANIZATION_ROLE ( 'design_supplier' ) ;
#116 = APPROVAL ( #279, 'UNSPECIFIED' ) ;
#117 = COORDINATED_UNIVERSAL_TIME_OFFSET ( 8, 0, .AHEAD. ) ;
#118 = DIRECTION ( 'NONE',  ( -1.000000000000000000, -0.000000000000000000, -0.000000000000000000 ) ) ;
#119 = DIRECTION ( 'NONE',  ( 0.000000000000000000, 0.000000000000000000, 1.000000000000000000 ) ) ;
#120 = APPROVAL_STATUS ( 'not_yet_approved' ) ;
#121 = DIRECTION ( 'NONE',  ( -1.000000000000000000, -0.000000000000000000, -0.000000000000000000 ) ) ;
#122 = CYLINDRICAL_SURFACE ( 'NONE', #192, 7.499999999999998224 ) ;
#123 = AXIS2_PLACEMENT_3D ( 'NONE', #87, #144, #36 ) ;
#124 = APPROVAL_ROLE ( '' ) ;
#125 = CYLINDRICAL_SURFACE ( 'NONE', #20, 12.69999999999999929 ) ;
#126 = UNCERTAINTY_MEASURE_WITH_UNIT (LENGTH_MEASURE( 1.000000000000000082E-05 ), #139, 'distance_accuracy_value', 'NONE');
#127 = EDGE_CURVE ( 'NONE', #183, #245, #149, .T. ) ;
#128 = CIRCLE ( 'NONE', #301, 7.500000000000000000 ) ;
#129 = ORIENTED_EDGE ( 'NONE', *, *, #276, .F. ) ;
#130 = ORIENTED_EDGE ( 'NONE', *, *, #127, .F. ) ;
#131 = AXIS2_PLACEMENT_3D ( 'NONE', #261, #33, #30 ) ;
#132 = ORIENTED_EDGE ( 'NONE', *, *, #136, .F. ) ;
#133 = CC_DESIGN_DATE_AND_TIME_ASSIGNMENT ( #31, #234, ( #321 ) ) ;
#134 = CARTESIAN_POINT ( 'NONE',  ( -1.614212418857619014, 1.555301434917138433E-15, -12.69999999999999929 ) ) ;
#135 = CARTESIAN_POINT ( 'NONE',  ( 0.000000000000000000, 0.000000000000000000, 0.000000000000000000 ) ) ;
#136 = EDGE_CURVE ( 'NONE', #327, #17, #260, .T. ) ;
#137 = FACE_OUTER_BOUND ( 'NONE', #72, .T. ) ;
#138 = AXIS2_PLACEMENT_3D ( 'NONE', #312, #308, #230 ) ;
#139 =( LENGTH_UNIT ( ) NAMED_UNIT ( * ) SI_UNIT ( .MILLI., .METRE. ) );
#140 = PERSON_AND_ORGANIZATION_ROLE ( 'creator' ) ;
#141 = CARTESIAN_POINT ( 'NONE',  ( -1.614212418857619014, 0.000000000000000000, 12.69999999999999929 ) ) ;
#142 = ORGANIZATION ( 'UNSPECIFIED', 'UNSPECIFIED', '' ) ;
#143 = EDGE_CURVE ( 'NONE', #108, #152, #128, .T. ) ;
#144 = DIRECTION ( 'NONE',  ( -1.000000000000000000, -0.000000000000000000, -0.000000000000000000 ) ) ;
#145 = APPROVAL_ROLE ( '' ) ;
#146 = DIRECTION ( 'NONE',  ( -1.000000000000000000, -0.000000000000000000, -0.000000000000000000 ) ) ;
#147 = CARTESIAN_POINT ( 'NONE',  ( -3.000000000000000000, 0.000000000000000000, 7.500000000000000000 ) ) ;
#148 = CARTESIAN_POINT ( 'NONE',  ( -1.614212418857619014, 0.000000000000000000, 7.499999999999998224 ) ) ;
#149 = CIRCLE ( 'NONE', #179, 7.499999999999997335 ) ;
#150 = COORDINATED_UNIVERSAL_TIME_OFFSET ( 8, 0, .AHEAD. ) ;
#151 = ORIENTED_EDGE ( 'NONE', *, *, #199, .T. ) ;
#152 = VERTEX_POINT ( 'NONE', #62 ) ;
#153 = CC_DESIGN_PERSON_AND_ORGANIZATION_ASSIGNMENT ( #96, #59, ( #188 ) ) ;
#154 = ORIENTED_EDGE ( 'NONE', *, *, #232, .T. ) ;
#155 = EDGE_CURVE ( 'NONE', #156, #111, #313, .T. ) ;
#156 = VERTEX_POINT ( 'NONE', #65 ) ;
#157 = CC_DESIGN_PERSON_AND_ORGANIZATION_ASSIGNMENT ( #9, #140, ( #75 ) ) ;
#158 = PERSON_AND_ORGANIZATION ( #272, #142 ) ;
#159 = AXIS2_PLACEMENT_3D ( 'NONE', #135, #333, #198 ) ;
#160 = APPROVAL_DATE_TIME ( #208, #329 ) ;
#161 = DIRECTION ( 'NONE',  ( 0.000000000000000000, 0.000000000000000000, -1.000000000000000000 ) ) ;
#162 = CARTESIAN_POINT ( 'NONE',  ( -3.000000000000000000, 1.555301434917138433E-15, -12.69999999999999929 ) ) ;
#163 = PERSON_AND_ORGANIZATION ( #272, #142 ) ;
#164 = CARTESIAN_POINT ( 'NONE',  ( 0.5000000000000008882, 0.000000000000000000, 0.000000000000000000 ) ) ;
#165 = LINE ( 'NONE', #262, #69 ) ;
#166 = DIRECTION ( 'NONE',  ( -1.000000000000000000, -0.000000000000000000, -0.000000000000000000 ) ) ;
#167 = EDGE_CURVE ( 'NONE', #183, #108, #68, .T. ) ;
#168 = SHAPE_DEFINITION_REPRESENTATION ( #34, #227 ) ;
#169 = CARTESIAN_POINT ( 'NONE',  ( -3.000000000000000000, 0.000000000000000000, 0.000000000000000000 ) ) ;
#170 = APPROVAL_DATE_TIME ( #214, #116 ) ;
#171 = AXIS2_PLACEMENT_3D ( 'NONE', #104, #231, #226 ) ;
#172 = EDGE_CURVE ( 'NONE', #254, #19, #224, .T. ) ;
#173 = ORIENTED_EDGE ( 'NONE', *, *, #332, .T. ) ;
#174 = EDGE_LOOP ( 'NONE', ( #223, #71 ) ) ;
#175 = AXIS2_PLACEMENT_3D ( 'NONE', #180, #181, #196 ) ;
#176 = EDGE_LOOP ( 'NONE', ( #130, #273, #219, #249 ) ) ;
#177 = ORIENTED_EDGE ( 'NONE', *, *, #155, .F. ) ;
#178 = PRODUCT ( 'QM-CAQWP-15-550-750-M', 'QM-CAQWP-15-550-750-M', '', ( #306 ) ) ;
#179 = AXIS2_PLACEMENT_3D ( 'NONE', #91, #187, #291 ) ;
#180 = CARTESIAN_POINT ( 'NONE',  ( 3.000000000000000000, 12.69999999999999929, 0.000000000000000000 ) ) ;
#181 = DIRECTION ( 'NONE',  ( -1.000000000000000000, 0.000000000000000000, -0.000000000000000000 ) ) ;
#182 =( GEOMETRIC_REPRESENTATION_CONTEXT ( 3 ) GLOBAL_UNCERTAINTY_ASSIGNED_CONTEXT ( ( #126 ) ) GLOBAL_UNIT_ASSIGNED_CONTEXT ( ( #139, #280, #278 ) ) REPRESENTATION_CONTEXT ( 'NONE', 'WORKASPACE' ) );
#183 = VERTEX_POINT ( 'NONE', #35 ) ;
#184 = DIRECTION ( 'NONE',  ( 0.000000000000000000, 0.000000000000000000, 1.000000000000000000 ) ) ;
#185 = DIRECTION ( 'NONE',  ( -1.000000000000000000, -0.000000000000000000, -0.000000000000000000 ) ) ;
#186 = DIRECTION ( 'NONE',  ( -0.000000000000000000, 0.000000000000000000, 1.000000000000000000 ) ) ;
#187 = DIRECTION ( 'NONE',  ( -1.000000000000000000, -0.000000000000000000, -0.000000000000000000 ) ) ;
#188 = SECURITY_CLASSIFICATION ( '', '', #238 ) ;
#189 = EDGE_CURVE ( 'NONE', #245, #152, #290, .T. ) ;
#190 = CARTESIAN_POINT ( 'NONE',  ( -0.5000000000000004441, 0.000000000000000000, 0.000000000000000000 ) ) ;
#191 = ADVANCED_FACE ( 'NONE', ( #7 ), #316, .F. ) ;
#192 = AXIS2_PLACEMENT_3D ( 'NONE', #38, #283, #119 ) ;
#193 = ORIENTED_EDGE ( 'NONE', *, *, #216, .F. ) ;
#194 = ORIENTED_EDGE ( 'NONE', *, *, #127, .T. ) ;
#195 = ORIENTED_EDGE ( 'NONE', *, *, #155, .T. ) ;
#196 = DIRECTION ( 'NONE',  ( -0.000000000000000000, 0.000000000000000000, 1.000000000000000000 ) ) ;
#197 = CIRCLE ( 'NONE', #138, 7.500000000000000000 ) ;
#198 = DIRECTION ( 'NONE',  ( 1.000000000000000000, 0.000000000000000000, 0.000000000000000000 ) ) ;
#199 = EDGE_CURVE ( 'NONE', #17, #254, #165, .T. ) ;
#200 = EDGE_LOOP ( 'NONE', ( #251, #70 ) ) ;
#201 = ORIENTED_EDGE ( 'NONE', *, *, #172, .F. ) ;
#202 = DIRECTION ( 'NONE',  ( -1.000000000000000000, -0.000000000000000000, -0.000000000000000000 ) ) ;
#203 = DIRECTION ( 'NONE',  ( 0.000000000000000000, 0.000000000000000000, 1.000000000000000000 ) ) ;
#204 = VECTOR ( 'NONE', #209, 1000.000000000000000 ) ;
#205 = PERSON_AND_ORGANIZATION ( #272, #142 ) ;
#206 = EDGE_CURVE ( 'NONE', #77, #111, #229, .T. ) ;
#207 = CARTESIAN_POINT ( 'NONE',  ( -1.614212418857619014, 0.000000000000000000, 7.499999999999998224 ) ) ;
#208 = DATE_AND_TIME ( #264, #74 ) ;
#209 = DIRECTION ( 'NONE',  ( -1.000000000000000000, -0.000000000000000000, -0.000000000000000000 ) ) ;
#210 = CARTESIAN_POINT ( 'NONE',  ( -3.000000000000000000, 0.000000000000000000, 12.69999999999999929 ) ) ;
#211 = COORDINATED_UNIVERSAL_TIME_OFFSET ( 8, 0, .AHEAD. ) ;
#212 = DIRECTION ( 'NONE',  ( 0.000000000000000000, 0.000000000000000000, 1.000000000000000000 ) ) ;
#213 = CC_DESIGN_APPROVAL ( #116, ( #321 ) ) ;
#214 = DATE_AND_TIME ( #55, #107 ) ;
#215 = DIRECTION ( 'NONE',  ( 0.000000000000000000, 0.000000000000000000, 1.000000000000000000 ) ) ;
#216 = EDGE_CURVE ( 'NONE', #19, #254, #274, .T. ) ;
#217 = CALENDAR_DATE ( 2021, 5, 1 ) ;
#218 = CC_DESIGN_PERSON_AND_ORGANIZATION_ASSIGNMENT ( #318, #115, ( #75 ) ) ;
#219 = ORIENTED_EDGE ( 'NONE', *, *, #143, .T. ) ;
#220 = CIRCLE ( 'NONE', #334, 7.499999999999998224 ) ;
#221 = APPLICATION_CONTEXT ( 'configuration controlled 3d designs of mechanical parts and assemblies' ) ;
#222 = ORIENTED_EDGE ( 'NONE', *, *, #167, .F. ) ;
#223 = ORIENTED_EDGE ( 'NONE', *, *, #307, .F. ) ;
#224 = CIRCLE ( 'NONE', #5, 7.500000000000000000 ) ;
#225 = EDGE_LOOP ( 'NONE', ( #303, #154, #102, #275 ) ) ;
#226 = DIRECTION ( 'NONE',  ( 0.000000000000000000, 0.000000000000000000, -1.000000000000000000 ) ) ;
#227 = ADVANCED_BREP_SHAPE_REPRESENTATION ( 'QM-CAQWP-15-550-750-M', ( #289, #159 ), #182 ) ;
#228 = CARTESIAN_POINT ( 'NONE',  ( 3.000000000000000000, 0.000000000000000000, 0.000000000000000000 ) ) ;
#229 = CIRCLE ( 'NONE', #114, 12.69999999999999929 ) ;
#230 = DIRECTION ( 'NONE',  ( 0.000000000000000000, 0.000000000000000000, 1.000000000000000000 ) ) ;
#231 = DIRECTION ( 'NONE',  ( 1.000000000000000000, 0.000000000000000000, 0.000000000000000000 ) ) ;
#232 = EDGE_CURVE ( 'NONE', #17, #327, #220, .T. ) ;
#233 = CARTESIAN_POINT ( 'NONE',  ( 3.000000000000000000, 0.000000000000000000, 0.000000000000000000 ) ) ;
#234 = DATE_TIME_ROLE ( 'creation_date' ) ;
#235 = DIRECTION ( 'NONE',  ( -1.000000000000000000, -0.000000000000000000, -0.000000000000000000 ) ) ;
#236 = DIRECTION ( 'NONE',  ( 0.000000000000000000, 0.000000000000000000, 1.000000000000000000 ) ) ;
#237 = CARTESIAN_POINT ( 'NONE',  ( 0.5000000000000008882, 9.184850993605147944E-16, -7.500000000000000000 ) ) ;
#238 = SECURITY_CLASSIFICATION_LEVEL ( 'unclassified' ) ;
#239 = DIRECTION ( 'NONE',  ( 0.000000000000000000, 0.000000000000000000, 1.000000000000000000 ) ) ;
#240 = CARTESIAN_POINT ( 'NONE',  ( -3.000000000000000000, 0.000000000000000000, 0.000000000000000000 ) ) ;
#241 = CARTESIAN_POINT ( 'NONE',  ( -1.614212418857619014, 0.000000000000000000, 0.000000000000000000 ) ) ;
#242 = CLOSED_SHELL ( 'NONE', ( #295, #21, #49, #191, #52, #25, #106, #57, #326, #285 ) ) ;
#243 = DATE_AND_TIME ( #217, #51 ) ;
#244 = LINE ( 'NONE', #207, #81 ) ;
#245 = VERTEX_POINT ( 'NONE', #112 ) ;
#246 = ORIENTED_EDGE ( 'NONE', *, *, #189, .T. ) ;
#247 = APPROVAL_PERSON_ORGANIZATION ( #158, #116, #124 ) ;
#248 = CC_DESIGN_PERSON_AND_ORGANIZATION_ASSIGNMENT ( #82, #255, ( #178 ) ) ;
#249 = ORIENTED_EDGE ( 'NONE', *, *, #189, .F. ) ;
#250 = EDGE_CURVE ( 'NONE', #152, #108, #197, .T. ) ;
#251 = ORIENTED_EDGE ( 'NONE', *, *, #42, .T. ) ;
#252 = AXIS2_PLACEMENT_3D ( 'NONE', #61, #298, #161 ) ;
#253 = FACE_OUTER_BOUND ( 'NONE', #100, .T. ) ;
#254 = VERTEX_POINT ( 'NONE', #110 ) ;
#255 = PERSON_AND_ORGANIZATION_ROLE ( 'design_owner' ) ;
#256 = LOCAL_TIME ( 10, 44, 32.00000000000000000, #150 ) ;
#257 = DIRECTION ( 'NONE',  ( 0.000000000000000000, 0.000000000000000000, 1.000000000000000000 ) ) ;
#258 = PLANE ( 'NONE',  #175 ) ;
#259 = CYLINDRICAL_SURFACE ( 'NONE', #324, 7.499999999999998224 ) ;
#260 = CIRCLE ( 'NONE', #252, 7.499999999999998224 ) ;
#261 = CARTESIAN_POINT ( 'NONE',  ( -3.000000000000000000, 7.500000000000000000, 0.000000000000000000 ) ) ;
#262 = CARTESIAN_POINT ( 'NONE',  ( -1.614212418857619014, 9.184850993605145972E-16, -7.499999999999998224 ) ) ;
#263 = DIRECTION ( 'NONE',  ( -1.000000000000000000, -0.000000000000000000, -0.000000000000000000 ) ) ;
#264 = CALENDAR_DATE ( 2021, 5, 1 ) ;
#265 = FACE_OUTER_BOUND ( 'NONE', #176, .T. ) ;
#266 = PRODUCT_RELATED_PRODUCT_CATEGORY ( 'detail', '', ( #178 ) ) ;
#267 = FACE_OUTER_BOUND ( 'NONE', #79, .T. ) ;
#268 = AXIS2_PLACEMENT_3D ( 'NONE', #169, #235, #6 ) ;
#269 = ORIENTED_EDGE ( 'NONE', *, *, #276, .T. ) ;
#270 = ORIENTED_EDGE ( 'NONE', *, *, #282, .T. ) ;
#271 = CC_DESIGN_PERSON_AND_ORGANIZATION_ASSIGNMENT ( #205, #26, ( #321 ) ) ;
#272 = PERSON ( 'UNSPECIFIED', 'UNSPECIFIED', 'UNSPECIFIED', ('UNSPECIFIED'), ('UNSPECIFIED'), ('UNSPECIFIED') ) ;
#273 = ORIENTED_EDGE ( 'NONE', *, *, #167, .T. ) ;
#274 = CIRCLE ( 'NONE', #92, 7.500000000000000000 ) ;
#275 = ORIENTED_EDGE ( 'NONE', *, *, #216, .T. ) ;
#276 = EDGE_CURVE ( 'NONE', #245, #183, #299, .T. ) ;
#277 = APPROVAL_PERSON_ORGANIZATION ( #163, #329, #145 ) ;
#278 =( NAMED_UNIT ( * ) SI_UNIT ( $, .STERADIAN. ) SOLID_ANGLE_UNIT ( ) );
#279 = APPROVAL_STATUS ( 'not_yet_approved' ) ;
#280 =( NAMED_UNIT ( * ) PLANE_ANGLE_UNIT ( ) SI_UNIT ( $, .RADIAN. ) );
#281 = CYLINDRICAL_SURFACE ( 'NONE', #113, 12.69999999999999929 ) ;
#282 = EDGE_CURVE ( 'NONE', #76, #77, #1, .T. ) ;
#283 = DIRECTION ( 'NONE',  ( -1.000000000000000000, -0.000000000000000000, -0.000000000000000000 ) ) ;
#284 = DATE_TIME_ROLE ( 'classification_date' ) ;
#285 = ADVANCED_FACE ( 'NONE', ( #253 ), #105, .F. ) ;
#286 = DIRECTION ( 'NONE',  ( -1.000000000000000000, -0.000000000000000000, -0.000000000000000000 ) ) ;
#287 = PERSON_AND_ORGANIZATION ( #272, #142 ) ;
#288 = CC_DESIGN_APPROVAL ( #73, ( #75 ) ) ;
#289 = MANIFOLD_SOLID_BREP ( 'Ðý×', #242 ) ;
#290 = LINE ( 'NONE', #148, #204 ) ;
#291 = DIRECTION ( 'NONE',  ( 0.000000000000000000, 0.000000000000000000, 1.000000000000000000 ) ) ;
#292 = CALENDAR_DATE ( 2021, 5, 1 ) ;
#293 = DIRECTION ( 'NONE',  ( 1.000000000000000000, 0.000000000000000000, 0.000000000000000000 ) ) ;
#294 = DIRECTION ( 'NONE',  ( 0.000000000000000000, 0.000000000000000000, 1.000000000000000000 ) ) ;
#295 = ADVANCED_FACE ( 'NONE', ( #137 ), #281, .T. ) ;
#296 = DIRECTION ( 'NONE',  ( -1.000000000000000000, -0.000000000000000000, -0.000000000000000000 ) ) ;
#297 = AXIS2_PLACEMENT_3D ( 'NONE', #109, #304, #203 ) ;
#298 = DIRECTION ( 'NONE',  ( 1.000000000000000000, 0.000000000000000000, 0.000000000000000000 ) ) ;
#299 = CIRCLE ( 'NONE', #305, 7.499999999999997335 ) ;
#300 = ORIENTED_EDGE ( 'NONE', *, *, #172, .T. ) ;
#301 = AXIS2_PLACEMENT_3D ( 'NONE', #164, #84, #89 ) ;
#302 = ORIENTED_EDGE ( 'NONE', *, *, #250, .F. ) ;
#303 = ORIENTED_EDGE ( 'NONE', *, *, #199, .F. ) ;
#304 = DIRECTION ( 'NONE',  ( -1.000000000000000000, -0.000000000000000000, -0.000000000000000000 ) ) ;
#305 = AXIS2_PLACEMENT_3D ( 'NONE', #233, #50, #331 ) ;
#306 = MECHANICAL_CONTEXT ( 'NONE', #47, 'mechanical' ) ;
#307 = EDGE_CURVE ( 'NONE', #156, #76, #328, .T. ) ;
#308 = DIRECTION ( 'NONE',  ( -1.000000000000000000, -0.000000000000000000, -0.000000000000000000 ) ) ;
#309 = CARTESIAN_POINT ( 'NONE',  ( -0.5000000000000004441, 9.184850993605145972E-16, -7.499999999999998224 ) ) ;
#310 = ORIENTED_EDGE ( 'NONE', *, *, #250, .T. ) ;
#311 = VECTOR ( 'NONE', #335, 1000.000000000000000 ) ;
#312 = CARTESIAN_POINT ( 'NONE',  ( 0.5000000000000008882, 0.000000000000000000, 0.000000000000000000 ) ) ;
#313 = LINE ( 'NONE', #141, #97 ) ;
#314 = COORDINATED_UNIVERSAL_TIME_OFFSET ( 8, 0, .AHEAD. ) ;
#315 = FACE_BOUND ( 'NONE', #85, .T. ) ;
#316 = PLANE ( 'NONE',  #319 ) ;
#317 = FACE_OUTER_BOUND ( 'NONE', #44, .T. ) ;
#318 = PERSON_AND_ORGANIZATION ( #272, #142 ) ;
#319 = AXIS2_PLACEMENT_3D ( 'NONE', #60, #90, #186 ) ;
#320 = CARTESIAN_POINT ( 'NONE',  ( -1.614212418857619014, 0.000000000000000000, 0.000000000000000000 ) ) ;
#321 = PRODUCT_DEFINITION ( 'UNKNOWN', '', #75, #99 ) ;
#322 = CARTESIAN_POINT ( 'NONE',  ( -3.000000000000000000, 0.000000000000000000, 0.000000000000000000 ) ) ;
#323 = APPROVAL_ROLE ( '' ) ;
#324 = AXIS2_PLACEMENT_3D ( 'NONE', #56, #166, #294 ) ;
#325 = EDGE_LOOP ( 'NONE', ( #40, #173, #195, #24 ) ) ;
#326 = ADVANCED_FACE ( 'NONE', ( #4, #80 ), #258, .F. ) ;
#327 = VERTEX_POINT ( 'NONE', #48 ) ;
#328 = CIRCLE ( 'NONE', #43, 12.69999999999999929 ) ;
#329 = APPROVAL ( #120, 'UNSPECIFIED' ) ;
#330 = CC_DESIGN_APPROVAL ( #329, ( #188 ) ) ;
#331 = DIRECTION ( 'NONE',  ( 0.000000000000000000, 0.000000000000000000, 1.000000000000000000 ) ) ;
#332 = EDGE_CURVE ( 'NONE', #76, #156, #23, .T. ) ;
#333 = DIRECTION ( 'NONE',  ( 0.000000000000000000, 0.000000000000000000, 1.000000000000000000 ) ) ;
#334 = AXIS2_PLACEMENT_3D ( 'NONE', #190, #293, #63 ) ;
#335 = DIRECTION ( 'NONE',  ( -1.000000000000000000, -0.000000000000000000, -0.000000000000000000 ) ) ;
ENDSEC;
END-ISO-10303-21;
